ISO-10303-21;
HEADER;
/****************************************************************
 * Generated by software with PDE/Lib inside                    *
 * PDE/Lib Version 3.2.2, created Thu Mar 23, 2000 at 18:38:49  *
 * International Technegroup Inc. (www.iti-oh.com)              *
 ****************************************************************/
FILE_DESCRIPTION((''),'2;1');
FILE_NAME('15HI8802.stp','2006-03-13T15:36:26',('Shawn Mantel'),('Faztek, LLC'),'Mechanical Desktop 2005','Mechanical Desktop 2005',', , ');
FILE_SCHEMA(('CONFIG_CONTROL_DESIGN'));
ENDSEC;
DATA;
#8=(NAMED_UNIT(*)PLANE_ANGLE_UNIT()SI_UNIT($,.RADIAN.));
#9=DIMENSIONAL_EXPONENTS(0.0,0.0,0.0,0.0,0.0,0.0,0.0);
#10=PLANE_ANGLE_MEASURE_WITH_UNIT(PLANE_ANGLE_MEASURE(0.017453292500000),#8);
#14=(CONVERSION_BASED_UNIT('DEGREE',#10)NAMED_UNIT(#9)PLANE_ANGLE_UNIT());
#18=(NAMED_UNIT(*)SI_UNIT($,.STERADIAN.)SOLID_ANGLE_UNIT());
#20=DIMENSIONAL_EXPONENTS(1.0,0.0,0.0,0.0,0.0,0.0,0.0);
#24=(LENGTH_UNIT()NAMED_UNIT(*)SI_UNIT(.MILLI.,.METRE.));
#25=LENGTH_MEASURE_WITH_UNIT(LENGTH_MEASURE(25.399999999999999),#24);
#27=(CONVERSION_BASED_UNIT('INCH',#25)LENGTH_UNIT()NAMED_UNIT(#20));
#28=UNCERTAINTY_MEASURE_WITH_UNIT(LENGTH_MEASURE(0.000001000000000),#27,'DISTANCE_ACCURACY_VALUE','');
#33=(GEOMETRIC_REPRESENTATION_CONTEXT(3)GLOBAL_UNCERTAINTY_ASSIGNED_CONTEXT((#28))GLOBAL_UNIT_ASSIGNED_CONTEXT((#14,#18,#27))REPRESENTATION_CONTEXT('None','None'));
#34=APPLICATION_CONTEXT('CONFIGURATION CONTROLLED 3D DESIGNS OF MECHANICAL PARTS AND ASSEMBLIES');
#35=APPLICATION_PROTOCOL_DEFINITION('INTERNATIONAL STANDARD','config_control_design',1995,#34);
#36=MECHANICAL_CONTEXT('3D Mechanical Parts',#34,'mechanical');
#37=PRODUCT('Product','Product',' ',(#36));
#38=PRODUCT_RELATED_PRODUCT_CATEGORY('detail',$,(#37));
#39=PRODUCT_CATEGORY('part',$);
#40=PRODUCT_CATEGORY_RELATIONSHIP('None','None',#39,#38);
#41=PERSON('1','Design','Joe',$,$,$);
#42=ORGANIZATION($,'None','None');
#43=PERSON_AND_ORGANIZATION(#41,#42);
#44=PERSON_AND_ORGANIZATION_ROLE('design_owner');
#45=CC_DESIGN_PERSON_AND_ORGANIZATION_ASSIGNMENT(#43,#44,(#37));
#46=PRODUCT_DEFINITION_FORMATION_WITH_SPECIFIED_SOURCE('None','None',#37,.NOT_KNOWN.);
#47=PERSON('2','Creator','Joe',$,$,$);
#48=ORGANIZATION($,'None','None');
#49=PERSON_AND_ORGANIZATION(#47,#48);
#50=PERSON_AND_ORGANIZATION_ROLE('creator');
#51=CC_DESIGN_PERSON_AND_ORGANIZATION_ASSIGNMENT(#49,#50,(#46));
#52=PERSON('3','Supplier','Joe',$,$,$);
#53=ORGANIZATION($,'None','None');
#54=PERSON_AND_ORGANIZATION(#52,#53);
#55=PERSON_AND_ORGANIZATION_ROLE('design_supplier');
#56=CC_DESIGN_PERSON_AND_ORGANIZATION_ASSIGNMENT(#54,#55,(#46));
#57=APPROVAL_STATUS('approved');
#58=APPROVAL(#57,'None');
#59=PERSON('4','Approver','Joe',$,$,$);
#60=ORGANIZATION($,'None','None');
#61=PERSON_AND_ORGANIZATION(#59,#60);
#62=APPROVAL_ROLE('approver');
#63=APPROVAL_PERSON_ORGANIZATION(#61,#58,#62);
#64=COORDINATED_UNIVERSAL_TIME_OFFSET(8,$,.BEHIND.);
#65=CALENDAR_DATE(1996,29,5);
#66=LOCAL_TIME(12,0,0.0,#64);
#67=DATE_AND_TIME(#65,#66);
#68=APPROVAL_DATE_TIME(#67,#58);
#69=CC_DESIGN_APPROVAL(#58,(#46));
#70=SECURITY_CLASSIFICATION_LEVEL('unclassified');
#71=SECURITY_CLASSIFICATION('security','None',#70);
#72=CC_DESIGN_SECURITY_CLASSIFICATION(#71,(#46));
#73=APPROVAL_STATUS('approved');
#74=APPROVAL(#73,'None');
#75=PERSON('5','Approver','Joe',$,$,$);
#76=ORGANIZATION($,'None','None');
#77=PERSON_AND_ORGANIZATION(#75,#76);
#78=APPROVAL_ROLE('approver');
#79=APPROVAL_PERSON_ORGANIZATION(#77,#74,#78);
#80=COORDINATED_UNIVERSAL_TIME_OFFSET(8,$,.BEHIND.);
#81=CALENDAR_DATE(1996,29,5);
#82=LOCAL_TIME(12,0,0.0,#80);
#83=DATE_AND_TIME(#81,#82);
#84=APPROVAL_DATE_TIME(#83,#74);
#85=CC_DESIGN_APPROVAL(#74,(#71));
#86=PERSON('6','Classifier','Joe',$,$,$);
#87=ORGANIZATION($,'None','None');
#88=PERSON_AND_ORGANIZATION(#86,#87);
#89=PERSON_AND_ORGANIZATION_ROLE('classification_officer');
#90=CC_DESIGN_PERSON_AND_ORGANIZATION_ASSIGNMENT(#88,#89,(#71));
#91=COORDINATED_UNIVERSAL_TIME_OFFSET(8,$,.BEHIND.);
#92=CALENDAR_DATE(1996,29,5);
#93=LOCAL_TIME(12,0,0.0,#91);
#94=DATE_AND_TIME(#92,#93);
#95=DATE_TIME_ROLE('classification_date');
#96=CC_DESIGN_DATE_AND_TIME_ASSIGNMENT(#94,#95,(#71));
#97=DESIGN_CONTEXT('Design Context',#34,'design');
#98=PRODUCT_DEFINITION('None','None',#46,#97);
#99=PERSON('7','Creator','Joe',$,$,$);
#100=ORGANIZATION($,'None','None');
#101=PERSON_AND_ORGANIZATION(#99,#100);
#102=PERSON_AND_ORGANIZATION_ROLE('creator');
#103=CC_DESIGN_PERSON_AND_ORGANIZATION_ASSIGNMENT(#101,#102,(#98));
#104=COORDINATED_UNIVERSAL_TIME_OFFSET(8,$,.BEHIND.);
#105=CALENDAR_DATE(1996,29,5);
#106=LOCAL_TIME(12,0,0.0,#104);
#107=DATE_AND_TIME(#105,#106);
#108=DATE_TIME_ROLE('creation_date');
#109=CC_DESIGN_DATE_AND_TIME_ASSIGNMENT(#107,#108,(#98));
#110=APPROVAL_STATUS('approved');
#111=APPROVAL(#110,'None');
#112=PERSON('8','Approver','Joe',$,$,$);
#113=ORGANIZATION($,'None','None');
#114=PERSON_AND_ORGANIZATION(#112,#113);
#115=APPROVAL_ROLE('approver');
#116=APPROVAL_PERSON_ORGANIZATION(#114,#111,#115);
#117=COORDINATED_UNIVERSAL_TIME_OFFSET(8,$,.BEHIND.);
#118=CALENDAR_DATE(1996,29,5);
#119=LOCAL_TIME(12,0,0.0,#117);
#120=DATE_AND_TIME(#118,#119);
#121=APPROVAL_DATE_TIME(#120,#111);
#122=CC_DESIGN_APPROVAL(#111,(#98));
#123=CARTESIAN_POINT('NONE',(0.0,0.0,0.0));
#124=DIRECTION('NONE',(0.0,0.0,1.0));
#125=DIRECTION('NONE',(1.0,0.0,0.0));
#126=AXIS2_PLACEMENT_3D('NONE',#123,#124,#125);
#127=SHAPE_REPRESENTATION('SR1',(#126),#33);
#128=PRODUCT_DEFINITION_SHAPE('PDS1','Test Part',#98);
#129=SHAPE_DEFINITION_REPRESENTATION(#128,#127);
#130=CARTESIAN_POINT('',(0.0,0.0,0.250000000000000));
#131=DIRECTION('',(0.0,0.0,-1.0));
#132=DIRECTION('',(-0.707106781186548,-0.707106781186547,0.0));
#133=AXIS2_PLACEMENT_3D('',#130,#131,#132);
#134=CYLINDRICAL_SURFACE('',#133,0.750000000000000);
#135=CARTESIAN_POINT('',(-0.530330085889911,-0.530330085889911,0.250000000000000));
#136=VERTEX_POINT('',#135);
#137=CARTESIAN_POINT('',(-0.530330085889911,-0.530330085889911,0.0));
#138=VERTEX_POINT('',#137);
#139=CARTESIAN_POINT('',(-0.530330085889911,-0.530330085889911,0.250000000000000));
#140=DIRECTION('',(0.0,0.0,-1.0));
#141=VECTOR('',#140,0.250000000000000);
#142=LINE('',#139,#141);
#143=EDGE_CURVE('',#136,#138,#142,.T.);
#144=ORIENTED_EDGE('',*,*,#143,.F.);
#145=CARTESIAN_POINT('',(-0.750000000000000,0.0,0.250000000000000));
#146=VERTEX_POINT('',#145);
#147=CARTESIAN_POINT('',(0.0,0.0,0.250000000000000));
#148=DIRECTION('',(0.0,0.0,-1.000000000000000));
#149=DIRECTION('',(0.707106781186547,-0.707106781186548,0.0));
#150=AXIS2_PLACEMENT_3D('',#147,#148,#149);
#151=CIRCLE('',#150,0.750000000000000);
#152=EDGE_CURVE('',#136,#146,#151,.T.);
#153=ORIENTED_EDGE('',*,*,#152,.T.);
#154=CARTESIAN_POINT('',(-0.750000000000000,0.0,0.0));
#155=VERTEX_POINT('',#154);
#156=CARTESIAN_POINT('',(-0.750000000000000,0.0,0.250000000000000));
#157=DIRECTION('',(0.0,0.0,-1.0));
#158=VECTOR('',#157,0.250000000000000);
#159=LINE('',#156,#158);
#160=EDGE_CURVE('',#146,#155,#159,.T.);
#161=ORIENTED_EDGE('',*,*,#160,.T.);
#162=CARTESIAN_POINT('',(0.0,0.0,0.0));
#163=DIRECTION('',(0.0,0.0,1.000000000000000));
#164=DIRECTION('',(0.707106781186547,-0.707106781186548,0.0));
#165=AXIS2_PLACEMENT_3D('',#162,#163,#164);
#166=CIRCLE('',#165,0.750000000000000);
#167=EDGE_CURVE('',#155,#138,#166,.T.);
#168=ORIENTED_EDGE('',*,*,#167,.T.);
#169=EDGE_LOOP('',(#144,#153,#161,#168));
#170=FACE_OUTER_BOUND('',#169,.T.);
#171=ADVANCED_FACE('',(#170),#134,.T.);
#172=CARTESIAN_POINT('',(0.0,0.0,0.250000000000000));
#173=DIRECTION('',(0.0,0.0,-1.0));
#174=DIRECTION('',(-1.0,0.0,0.0));
#175=AXIS2_PLACEMENT_3D('',#172,#173,#174);
#176=CYLINDRICAL_SURFACE('',#175,0.171000000000000);
#177=CARTESIAN_POINT('',(-0.171000000000000,0.0,0.0));
#178=VERTEX_POINT('',#177);
#179=CARTESIAN_POINT('',(-0.171000000000000,0.0,0.250000000000000));
#180=VERTEX_POINT('',#179);
#181=CARTESIAN_POINT('',(-0.171000000000000,0.0,0.0));
#182=DIRECTION('',(0.0,0.0,1.0));
#183=VECTOR('',#182,0.250000000000000);
#184=LINE('',#181,#183);
#185=EDGE_CURVE('',#178,#180,#184,.T.);
#186=ORIENTED_EDGE('',*,*,#185,.F.);
#187=CARTESIAN_POINT('',(0.171000000000000,0.0,0.0));
#188=VERTEX_POINT('',#187);
#189=CARTESIAN_POINT('',(0.0,0.0,0.0));
#190=DIRECTION('',(0.0,0.0,1.0));
#191=DIRECTION('',(-1.0,0.0,0.0));
#192=AXIS2_PLACEMENT_3D('',#189,#190,#191);
#193=CIRCLE('',#192,0.171000000000000);
#194=EDGE_CURVE('',#188,#178,#193,.T.);
#195=ORIENTED_EDGE('',*,*,#194,.F.);
#196=CARTESIAN_POINT('',(0.171000000000000,0.0,0.250000000000000));
#197=VERTEX_POINT('',#196);
#198=CARTESIAN_POINT('',(0.171000000000000,0.0,0.250000000000000));
#199=DIRECTION('',(0.0,0.0,-1.0));
#200=VECTOR('',#199,0.250000000000000);
#201=LINE('',#198,#200);
#202=EDGE_CURVE('',#197,#188,#201,.T.);
#203=ORIENTED_EDGE('',*,*,#202,.F.);
#204=CARTESIAN_POINT('',(0.0,0.0,0.250000000000000));
#205=DIRECTION('',(0.0,0.0,-1.0));
#206=DIRECTION('',(-1.0,0.0,0.0));
#207=AXIS2_PLACEMENT_3D('',#204,#205,#206);
#208=CIRCLE('',#207,0.171000000000000);
#209=EDGE_CURVE('',#180,#197,#208,.T.);
#210=ORIENTED_EDGE('',*,*,#209,.F.);
#211=EDGE_LOOP('',(#186,#195,#203,#210));
#212=FACE_OUTER_BOUND('',#211,.T.);
#213=ADVANCED_FACE('',(#212),#176,.F.);
#214=CARTESIAN_POINT('',(2.220446E-016,1.500000000000000,0.250000000000000));
#215=DIRECTION('',(0.0,0.0,-1.0));
#216=DIRECTION('',(-1.0,0.0,0.0));
#217=AXIS2_PLACEMENT_3D('',#214,#215,#216);
#218=CYLINDRICAL_SURFACE('',#217,0.171000000000000);
#219=CARTESIAN_POINT('',(-0.171000000000000,1.500000000000000,0.0));
#220=VERTEX_POINT('',#219);
#221=CARTESIAN_POINT('',(-0.171000000000000,1.500000000000000,0.250000000000000));
#222=VERTEX_POINT('',#221);
#223=CARTESIAN_POINT('',(-0.171000000000000,1.500000000000000,0.0));
#224=DIRECTION('',(0.0,0.0,1.0));
#225=VECTOR('',#224,0.250000000000000);
#226=LINE('',#223,#225);
#227=EDGE_CURVE('',#220,#222,#226,.T.);
#228=ORIENTED_EDGE('',*,*,#227,.F.);
#229=CARTESIAN_POINT('',(0.171000000000000,1.500000000000000,0.0));
#230=VERTEX_POINT('',#229);
#231=CARTESIAN_POINT('',(2.220446E-016,1.500000000000000,0.0));
#232=DIRECTION('',(0.0,0.0,1.0));
#233=DIRECTION('',(-1.0,0.0,0.0));
#234=AXIS2_PLACEMENT_3D('',#231,#232,#233);
#235=CIRCLE('',#234,0.171000000000000);
#236=EDGE_CURVE('',#230,#220,#235,.T.);
#237=ORIENTED_EDGE('',*,*,#236,.F.);
#238=CARTESIAN_POINT('',(0.171000000000000,1.500000000000000,0.250000000000000));
#239=VERTEX_POINT('',#238);
#240=CARTESIAN_POINT('',(0.171000000000000,1.500000000000000,0.250000000000000));
#241=DIRECTION('',(0.0,0.0,-1.0));
#242=VECTOR('',#241,0.250000000000000);
#243=LINE('',#240,#242);
#244=EDGE_CURVE('',#239,#230,#243,.T.);
#245=ORIENTED_EDGE('',*,*,#244,.F.);
#246=CARTESIAN_POINT('',(2.220446E-016,1.500000000000000,0.250000000000000));
#247=DIRECTION('',(0.0,0.0,-1.0));
#248=DIRECTION('',(-1.0,0.0,0.0));
#249=AXIS2_PLACEMENT_3D('',#246,#247,#248);
#250=CIRCLE('',#249,0.171000000000000);
#251=EDGE_CURVE('',#222,#239,#250,.T.);
#252=ORIENTED_EDGE('',*,*,#251,.F.);
#253=EDGE_LOOP('',(#228,#237,#245,#252));
#254=FACE_OUTER_BOUND('',#253,.T.);
#255=ADVANCED_FACE('',(#254),#218,.F.);
#256=CARTESIAN_POINT('',(3.330669E-016,3.0,0.250000000000000));
#257=DIRECTION('',(0.0,0.0,-1.0));
#258=DIRECTION('',(-1.0,0.0,0.0));
#259=AXIS2_PLACEMENT_3D('',#256,#257,#258);
#260=CYLINDRICAL_SURFACE('',#259,0.171000000000000);
#261=CARTESIAN_POINT('',(-0.171000000000000,3.0,0.0));
#262=VERTEX_POINT('',#261);
#263=CARTESIAN_POINT('',(-0.171000000000000,3.0,0.250000000000000));
#264=VERTEX_POINT('',#263);
#265=CARTESIAN_POINT('',(-0.171000000000000,3.0,0.0));
#266=DIRECTION('',(0.0,0.0,1.0));
#267=VECTOR('',#266,0.250000000000000);
#268=LINE('',#265,#267);
#269=EDGE_CURVE('',#262,#264,#268,.T.);
#270=ORIENTED_EDGE('',*,*,#269,.F.);
#271=CARTESIAN_POINT('',(0.171000000000000,3.0,0.0));
#272=VERTEX_POINT('',#271);
#273=CARTESIAN_POINT('',(3.330669E-016,3.0,0.0));
#274=DIRECTION('',(0.0,0.0,1.0));
#275=DIRECTION('',(-1.0,0.0,0.0));
#276=AXIS2_PLACEMENT_3D('',#273,#274,#275);
#277=CIRCLE('',#276,0.171000000000000);
#278=EDGE_CURVE('',#272,#262,#277,.T.);
#279=ORIENTED_EDGE('',*,*,#278,.F.);
#280=CARTESIAN_POINT('',(0.171000000000000,3.0,0.250000000000000));
#281=VERTEX_POINT('',#280);
#282=CARTESIAN_POINT('',(0.171000000000000,3.0,0.250000000000000));
#283=DIRECTION('',(0.0,0.0,-1.0));
#284=VECTOR('',#283,0.250000000000000);
#285=LINE('',#282,#284);
#286=EDGE_CURVE('',#281,#272,#285,.T.);
#287=ORIENTED_EDGE('',*,*,#286,.F.);
#288=CARTESIAN_POINT('',(3.330669E-016,3.0,0.250000000000000));
#289=DIRECTION('',(0.0,0.0,-1.0));
#290=DIRECTION('',(-1.0,0.0,0.0));
#291=AXIS2_PLACEMENT_3D('',#288,#289,#290);
#292=CIRCLE('',#291,0.171000000000000);
#293=EDGE_CURVE('',#264,#281,#292,.T.);
#294=ORIENTED_EDGE('',*,*,#293,.F.);
#295=EDGE_LOOP('',(#270,#279,#287,#294));
#296=FACE_OUTER_BOUND('',#295,.T.);
#297=ADVANCED_FACE('',(#296),#260,.F.);
#298=CARTESIAN_POINT('',(3.330669E-016,3.0,0.250000000000000));
#299=DIRECTION('',(0.0,0.0,-1.0));
#300=DIRECTION('',(-1.0,0.0,0.0));
#301=AXIS2_PLACEMENT_3D('',#298,#299,#300);
#302=CYLINDRICAL_SURFACE('',#301,0.171000000000000);
#303=ORIENTED_EDGE('',*,*,#269,.T.);
#304=CARTESIAN_POINT('',(3.330669E-016,3.0,0.250000000000000));
#305=DIRECTION('',(0.0,0.0,-1.0));
#306=DIRECTION('',(-1.0,0.0,0.0));
#307=AXIS2_PLACEMENT_3D('',#304,#305,#306);
#308=CIRCLE('',#307,0.171000000000000);
#309=EDGE_CURVE('',#281,#264,#308,.T.);
#310=ORIENTED_EDGE('',*,*,#309,.F.);
#311=ORIENTED_EDGE('',*,*,#286,.T.);
#312=CARTESIAN_POINT('',(3.330669E-016,3.0,0.0));
#313=DIRECTION('',(0.0,0.0,1.0));
#314=DIRECTION('',(-1.0,0.0,0.0));
#315=AXIS2_PLACEMENT_3D('',#312,#313,#314);
#316=CIRCLE('',#315,0.171000000000000);
#317=EDGE_CURVE('',#262,#272,#316,.T.);
#318=ORIENTED_EDGE('',*,*,#317,.F.);
#319=EDGE_LOOP('',(#303,#310,#311,#318));
#320=FACE_OUTER_BOUND('',#319,.T.);
#321=ADVANCED_FACE('',(#320),#302,.F.);
#322=CARTESIAN_POINT('',(2.220446E-016,1.500000000000000,0.250000000000000));
#323=DIRECTION('',(0.0,0.0,-1.0));
#324=DIRECTION('',(-1.0,0.0,0.0));
#325=AXIS2_PLACEMENT_3D('',#322,#323,#324);
#326=CYLINDRICAL_SURFACE('',#325,0.171000000000000);
#327=ORIENTED_EDGE('',*,*,#227,.T.);
#328=CARTESIAN_POINT('',(2.220446E-016,1.500000000000000,0.250000000000000));
#329=DIRECTION('',(0.0,0.0,-1.0));
#330=DIRECTION('',(-1.0,0.0,0.0));
#331=AXIS2_PLACEMENT_3D('',#328,#329,#330);
#332=CIRCLE('',#331,0.171000000000000);
#333=EDGE_CURVE('',#239,#222,#332,.T.);
#334=ORIENTED_EDGE('',*,*,#333,.F.);
#335=ORIENTED_EDGE('',*,*,#244,.T.);
#336=CARTESIAN_POINT('',(2.220446E-016,1.500000000000000,0.0));
#337=DIRECTION('',(0.0,0.0,1.0));
#338=DIRECTION('',(-1.0,0.0,0.0));
#339=AXIS2_PLACEMENT_3D('',#336,#337,#338);
#340=CIRCLE('',#339,0.171000000000000);
#341=EDGE_CURVE('',#220,#230,#340,.T.);
#342=ORIENTED_EDGE('',*,*,#341,.F.);
#343=EDGE_LOOP('',(#327,#334,#335,#342));
#344=FACE_OUTER_BOUND('',#343,.T.);
#345=ADVANCED_FACE('',(#344),#326,.F.);
#346=CARTESIAN_POINT('',(0.0,0.0,0.250000000000000));
#347=DIRECTION('',(0.0,0.0,-1.0));
#348=DIRECTION('',(-1.0,0.0,0.0));
#349=AXIS2_PLACEMENT_3D('',#346,#347,#348);
#350=CYLINDRICAL_SURFACE('',#349,0.171000000000000);
#351=ORIENTED_EDGE('',*,*,#185,.T.);
#352=CARTESIAN_POINT('',(0.0,0.0,0.250000000000000));
#353=DIRECTION('',(0.0,0.0,-1.0));
#354=DIRECTION('',(-1.0,0.0,0.0));
#355=AXIS2_PLACEMENT_3D('',#352,#353,#354);
#356=CIRCLE('',#355,0.171000000000000);
#357=EDGE_CURVE('',#197,#180,#356,.T.);
#358=ORIENTED_EDGE('',*,*,#357,.F.);
#359=ORIENTED_EDGE('',*,*,#202,.T.);
#360=CARTESIAN_POINT('',(0.0,0.0,0.0));
#361=DIRECTION('',(0.0,0.0,1.0));
#362=DIRECTION('',(-1.0,0.0,0.0));
#363=AXIS2_PLACEMENT_3D('',#360,#361,#362);
#364=CIRCLE('',#363,0.171000000000000);
#365=EDGE_CURVE('',#178,#188,#364,.T.);
#366=ORIENTED_EDGE('',*,*,#365,.F.);
#367=EDGE_LOOP('',(#351,#358,#359,#366));
#368=FACE_OUTER_BOUND('',#367,.T.);
#369=ADVANCED_FACE('',(#368),#350,.F.);
#370=CARTESIAN_POINT('',(2.220446E-016,1.500000000000000,0.250000000000000));
#371=DIRECTION('',(0.0,0.0,-1.0));
#372=DIRECTION('',(1.0,0.0,0.0));
#373=AXIS2_PLACEMENT_3D('',#370,#371,#372);
#374=PLANE('',#373);
#375=CARTESIAN_POINT('',(0.750000000000000,0.0,0.250000000000000));
#376=VERTEX_POINT('',#375);
#377=CARTESIAN_POINT('',(0.0,0.0,0.250000000000000));
#378=DIRECTION('',(0.0,0.0,-1.000000000000000));
#379=DIRECTION('',(0.707106781186547,-0.707106781186548,0.0));
#380=AXIS2_PLACEMENT_3D('',#377,#378,#379);
#381=CIRCLE('',#380,0.750000000000000);
#382=EDGE_CURVE('',#376,#136,#381,.T.);
#383=ORIENTED_EDGE('',*,*,#382,.F.);
#384=CARTESIAN_POINT('',(0.750000000000000,3.750000000000000,0.250000000000000));
#385=VERTEX_POINT('',#384);
#386=CARTESIAN_POINT('',(0.750000000000000,0.0,0.250000000000000));
#387=DIRECTION('',(0.0,1.0,0.0));
#388=VECTOR('',#387,3.750000000000000);
#389=LINE('',#386,#388);
#390=EDGE_CURVE('',#376,#385,#389,.T.);
#391=ORIENTED_EDGE('',*,*,#390,.T.);
#392=CARTESIAN_POINT('',(-0.750000000000000,3.750000000000000,0.250000000000000));
#393=VERTEX_POINT('',#392);
#394=CARTESIAN_POINT('',(0.750000000000000,3.750000000000000,0.250000000000000));
#395=DIRECTION('',(-1.0,0.0,0.0));
#396=VECTOR('',#395,1.500000000000000);
#397=LINE('',#394,#396);
#398=EDGE_CURVE('',#385,#393,#397,.T.);
#399=ORIENTED_EDGE('',*,*,#398,.T.);
#400=CARTESIAN_POINT('',(-0.750000000000000,3.750000000000000,0.250000000000000));
#401=DIRECTION('',(0.0,-1.0,0.0));
#402=VECTOR('',#401,3.750000000000000);
#403=LINE('',#400,#402);
#404=EDGE_CURVE('',#393,#146,#403,.T.);
#405=ORIENTED_EDGE('',*,*,#404,.T.);
#406=ORIENTED_EDGE('',*,*,#152,.F.);
#407=EDGE_LOOP('',(#383,#391,#399,#405,#406));
#408=FACE_OUTER_BOUND('',#407,.T.);
#409=ORIENTED_EDGE('',*,*,#293,.T.);
#410=ORIENTED_EDGE('',*,*,#309,.T.);
#411=EDGE_LOOP('',(#409,#410));
#412=FACE_BOUND('',#411,.T.);
#413=ORIENTED_EDGE('',*,*,#251,.T.);
#414=ORIENTED_EDGE('',*,*,#333,.T.);
#415=EDGE_LOOP('',(#413,#414));
#416=FACE_BOUND('',#415,.T.);
#417=ORIENTED_EDGE('',*,*,#209,.T.);
#418=ORIENTED_EDGE('',*,*,#357,.T.);
#419=EDGE_LOOP('',(#417,#418));
#420=FACE_BOUND('',#419,.T.);
#421=ADVANCED_FACE('',(#408,#412,#416,#420),#374,.F.);
#422=CARTESIAN_POINT('',(0.0,0.0,0.250000000000000));
#423=DIRECTION('',(0.0,0.0,-1.0));
#424=DIRECTION('',(-0.707106781186548,-0.707106781186547,0.0));
#425=AXIS2_PLACEMENT_3D('',#422,#423,#424);
#426=CYLINDRICAL_SURFACE('',#425,0.750000000000000);
#427=ORIENTED_EDGE('',*,*,#143,.T.);
#428=CARTESIAN_POINT('',(0.750000000000000,0.0,0.0));
#429=VERTEX_POINT('',#428);
#430=CARTESIAN_POINT('',(0.0,0.0,0.0));
#431=DIRECTION('',(0.0,0.0,1.000000000000000));
#432=DIRECTION('',(0.707106781186547,-0.707106781186548,0.0));
#433=AXIS2_PLACEMENT_3D('',#430,#431,#432);
#434=CIRCLE('',#433,0.750000000000000);
#435=EDGE_CURVE('',#138,#429,#434,.T.);
#436=ORIENTED_EDGE('',*,*,#435,.T.);
#437=CARTESIAN_POINT('',(0.750000000000000,0.0,0.0));
#438=DIRECTION('',(0.0,0.0,1.0));
#439=VECTOR('',#438,0.250000000000000);
#440=LINE('',#437,#439);
#441=EDGE_CURVE('',#429,#376,#440,.T.);
#442=ORIENTED_EDGE('',*,*,#441,.T.);
#443=ORIENTED_EDGE('',*,*,#382,.T.);
#444=EDGE_LOOP('',(#427,#436,#442,#443));
#445=FACE_OUTER_BOUND('',#444,.T.);
#446=ADVANCED_FACE('',(#445),#426,.T.);
#447=CARTESIAN_POINT('',(-0.750000000000000,3.750000000000000,0.250000000000000));
#448=DIRECTION('',(-1.0,0.0,0.0));
#449=DIRECTION('',(0.0,0.0,-1.0));
#450=AXIS2_PLACEMENT_3D('',#447,#448,#449);
#451=PLANE('',#450);
#452=ORIENTED_EDGE('',*,*,#160,.F.);
#453=ORIENTED_EDGE('',*,*,#404,.F.);
#454=CARTESIAN_POINT('',(-0.750000000000000,3.750000000000000,0.0));
#455=VERTEX_POINT('',#454);
#456=CARTESIAN_POINT('',(-0.750000000000000,3.750000000000000,0.250000000000000));
#457=DIRECTION('',(0.0,0.0,-1.0));
#458=VECTOR('',#457,0.250000000000000);
#459=LINE('',#456,#458);
#460=EDGE_CURVE('',#393,#455,#459,.T.);
#461=ORIENTED_EDGE('',*,*,#460,.T.);
#462=CARTESIAN_POINT('',(-0.750000000000000,3.750000000000000,0.0));
#463=DIRECTION('',(0.0,-1.0,0.0));
#464=VECTOR('',#463,3.750000000000000);
#465=LINE('',#462,#464);
#466=EDGE_CURVE('',#455,#155,#465,.T.);
#467=ORIENTED_EDGE('',*,*,#466,.T.);
#468=EDGE_LOOP('',(#452,#453,#461,#467));
#469=FACE_OUTER_BOUND('',#468,.T.);
#470=ADVANCED_FACE('',(#469),#451,.T.);
#471=CARTESIAN_POINT('',(0.750000000000000,-0.750000000000000,0.250000000000000));
#472=DIRECTION('',(1.0,0.0,0.0));
#473=DIRECTION('',(0.0,0.0,1.0));
#474=AXIS2_PLACEMENT_3D('',#471,#472,#473);
#475=PLANE('',#474);
#476=ORIENTED_EDGE('',*,*,#441,.F.);
#477=CARTESIAN_POINT('',(0.750000000000000,3.750000000000000,0.0));
#478=VERTEX_POINT('',#477);
#479=CARTESIAN_POINT('',(0.750000000000000,0.0,0.0));
#480=DIRECTION('',(0.0,1.0,0.0));
#481=VECTOR('',#480,3.750000000000000);
#482=LINE('',#479,#481);
#483=EDGE_CURVE('',#429,#478,#482,.T.);
#484=ORIENTED_EDGE('',*,*,#483,.T.);
#485=CARTESIAN_POINT('',(0.750000000000000,3.750000000000000,0.250000000000000));
#486=DIRECTION('',(0.0,0.0,-1.0));
#487=VECTOR('',#486,0.250000000000000);
#488=LINE('',#485,#487);
#489=EDGE_CURVE('',#385,#478,#488,.T.);
#490=ORIENTED_EDGE('',*,*,#489,.F.);
#491=ORIENTED_EDGE('',*,*,#390,.F.);
#492=EDGE_LOOP('',(#476,#484,#490,#491));
#493=FACE_OUTER_BOUND('',#492,.T.);
#494=ADVANCED_FACE('',(#493),#475,.T.);
#495=CARTESIAN_POINT('',(0.750000000000000,3.750000000000000,0.250000000000000));
#496=DIRECTION('',(0.0,1.0,0.0));
#497=DIRECTION('',(0.0,0.0,-1.0));
#498=AXIS2_PLACEMENT_3D('',#495,#496,#497);
#499=PLANE('',#498);
#500=CARTESIAN_POINT('',(0.750000000000000,3.750000000000000,0.0));
#501=DIRECTION('',(-1.0,0.0,0.0));
#502=VECTOR('',#501,1.500000000000000);
#503=LINE('',#500,#502);
#504=EDGE_CURVE('',#478,#455,#503,.T.);
#505=ORIENTED_EDGE('',*,*,#504,.T.);
#506=ORIENTED_EDGE('',*,*,#460,.F.);
#507=ORIENTED_EDGE('',*,*,#398,.F.);
#508=ORIENTED_EDGE('',*,*,#489,.T.);
#509=EDGE_LOOP('',(#505,#506,#507,#508));
#510=FACE_OUTER_BOUND('',#509,.T.);
#511=ADVANCED_FACE('',(#510),#499,.T.);
#512=CARTESIAN_POINT('',(-0.750000000000000,3.750000000000000,0.0));
#513=DIRECTION('',(0.0,0.0,-1.0));
#514=DIRECTION('',(1.0,0.0,0.0));
#515=AXIS2_PLACEMENT_3D('',#512,#513,#514);
#516=PLANE('',#515);
#517=ORIENTED_EDGE('',*,*,#167,.F.);
#518=ORIENTED_EDGE('',*,*,#466,.F.);
#519=ORIENTED_EDGE('',*,*,#504,.F.);
#520=ORIENTED_EDGE('',*,*,#483,.F.);
#521=ORIENTED_EDGE('',*,*,#435,.F.);
#522=EDGE_LOOP('',(#517,#518,#519,#520,#521));
#523=FACE_OUTER_BOUND('',#522,.T.);
#524=ORIENTED_EDGE('',*,*,#317,.T.);
#525=ORIENTED_EDGE('',*,*,#278,.T.);
#526=EDGE_LOOP('',(#524,#525));
#527=FACE_BOUND('',#526,.T.);
#528=ORIENTED_EDGE('',*,*,#341,.T.);
#529=ORIENTED_EDGE('',*,*,#236,.T.);
#530=EDGE_LOOP('',(#528,#529));
#531=FACE_BOUND('',#530,.T.);
#532=ORIENTED_EDGE('',*,*,#365,.T.);
#533=ORIENTED_EDGE('',*,*,#194,.T.);
#534=EDGE_LOOP('',(#532,#533));
#535=FACE_BOUND('',#534,.T.);
#536=ADVANCED_FACE('',(#523,#527,#531,#535),#516,.T.);
#537=CLOSED_SHELL('',(#171,#213,#255,#297,#321,#345,#369,#421,#446,#470,#494,#511,#536));
#538=MANIFOLD_SOLID_BREP('2B',#537);
#539=ADVANCED_BREP_SHAPE_REPRESENTATION('ABSR1',(#538),#33);
#540=SHAPE_REPRESENTATION_RELATIONSHIP('SRRPL1',' ',#539,#127);
ENDSEC;
END-ISO-10303-21;
