ISO-10303-21;
HEADER;
/****************************************************************
 * Generated by software with PDElib inside                    *
 * PDElib Version v51a, created Fri 09/10/2010                  *
 * ITI Transcendata (http://www.transcendata.com/)              *
 ****************************************************************/
FILE_DESCRIPTION((''),'2;1');
FILE_NAME('15BP2562.stp','2015-07-20T11:20:50',(''),(''),'Mechanical Desktop 2011','Mechanical Desktop 2011',', , ');
FILE_SCHEMA(('AUTOMOTIVE_DESIGN { 1 2 10303 214 1 1 1 1 }'));
ENDSEC;
DATA;
#10=(NAMED_UNIT(*)PLANE_ANGLE_UNIT()SI_UNIT($,.RADIAN.));
#11=DIMENSIONAL_EXPONENTS(0.0,0.0,0.0,0.0,0.0,0.0,0.0);
#12=PLANE_ANGLE_MEASURE_WITH_UNIT(PLANE_ANGLE_MEASURE(0.0174532925),#10);
#16=(CONVERSION_BASED_UNIT('DEGREE',#12)NAMED_UNIT(#11)PLANE_ANGLE_UNIT());
#20=(NAMED_UNIT(*)SI_UNIT($,.STERADIAN.)SOLID_ANGLE_UNIT());
#24=(LENGTH_UNIT()NAMED_UNIT(*)SI_UNIT(.CENTI.,.METRE.));
#25=DIMENSIONAL_EXPONENTS(1.0,0.0,0.0,0.0,0.0,0.0,0.0);
#26=LENGTH_MEASURE_WITH_UNIT(LENGTH_MEASURE(2.54),#24);
#30=(CONVERSION_BASED_UNIT('INCH',#26)LENGTH_UNIT()NAMED_UNIT(#25));
#32=UNCERTAINTY_MEASURE_WITH_UNIT(LENGTH_MEASURE(0.000001),#30,'DISTANCE_ACCURACY_VALUE','');
#34=(GEOMETRIC_REPRESENTATION_CONTEXT(3)GLOBAL_UNCERTAINTY_ASSIGNED_CONTEXT((#32))GLOBAL_UNIT_ASSIGNED_CONTEXT((#16,#20,#30))REPRESENTATION_CONTEXT('','3D'));
#35=APPLICATION_CONTEXT('automotive design');
#36=APPLICATION_PROTOCOL_DEFINITION('INTERNATIONAL_STANDARD','automotive_design',1998,#35);
#37=PRODUCT_CONTEXT('3D Mechanical Parts',#35,'mechanical');
#38=PRODUCT('Product','Product','',(#37));
#39=PRODUCT_RELATED_PRODUCT_CATEGORY('part',$,(#38));
#40=PRODUCT_CATEGORY('part',$);
#41=PERSON('1','Design','Joe',$,$,$);
#42=ORGANIZATION($,'None','None');
#43=PERSON_AND_ORGANIZATION(#41,#42);
#44=PERSON_AND_ORGANIZATION_ROLE('design_owner');
#45=APPLIED_PERSON_AND_ORGANIZATION_ASSIGNMENT(#43,#44,(#38));
#46=PRODUCT_DEFINITION_FORMATION_WITH_SPECIFIED_SOURCE('None','',#38,.BOUGHT.);
#47=PERSON('2','Creator','Joe',$,$,$);
#48=ORGANIZATION($,'None','None');
#49=PERSON_AND_ORGANIZATION(#47,#48);
#50=PERSON_AND_ORGANIZATION_ROLE('creator');
#51=APPLIED_PERSON_AND_ORGANIZATION_ASSIGNMENT(#49,#50,(#46));
#52=PERSON('3','Supplier','Joe',$,$,$);
#53=ORGANIZATION($,'None','None');
#54=PERSON_AND_ORGANIZATION(#52,#53);
#55=PERSON_AND_ORGANIZATION_ROLE('design_supplier');
#56=APPLIED_PERSON_AND_ORGANIZATION_ASSIGNMENT(#54,#55,(#46));
#57=PRODUCT_DEFINITION_CONTEXT('part definition',#35,'design');
#58=PRODUCT_DEFINITION('None','',#46,#57);
#59=PERSON('4','Creator','Joe',$,$,$);
#60=ORGANIZATION($,'None','None');
#61=PERSON_AND_ORGANIZATION(#59,#60);
#62=PERSON_AND_ORGANIZATION_ROLE('creator');
#63=APPLIED_PERSON_AND_ORGANIZATION_ASSIGNMENT(#61,#62,(#58));
#64=CARTESIAN_POINT('NONE',(0.0,0.0,0.0));
#65=DIRECTION('NONE',(0.0,0.0,1.0));
#66=DIRECTION('NONE',(1.0,0.0,0.0));
#67=AXIS2_PLACEMENT_3D('NONE',#64,#65,#66);
#68=SHAPE_REPRESENTATION('SR1',(#67),#34);
#69=PRODUCT_DEFINITION_SHAPE('PDS1','Test Part',#58);
#70=SHAPE_DEFINITION_REPRESENTATION(#69,#68);
#71=CARTESIAN_POINT('',(0.75,1.5,7.771561E-016));
#72=DIRECTION('',(-1.224606E-016,-4.440892E-016,1.0));
#73=DIRECTION('',(0.0,1.0,0.0));
#74=AXIS2_PLACEMENT_3D('',#71,#72,#73);
#75=CYLINDRICAL_SURFACE('',#74,0.25);
#76=CARTESIAN_POINT('',(0.75,1.75,8.881784E-016));
#77=VERTEX_POINT('',#76);
#78=CARTESIAN_POINT('',(0.75,1.75,0.750000000000001));
#79=VERTEX_POINT('',#78);
#80=CARTESIAN_POINT('',(0.75,1.75,8.881784E-016));
#81=DIRECTION('',(0.0,0.0,1.0));
#82=VECTOR('',#81,0.75);
#83=LINE('',#80,#82);
#84=EDGE_CURVE('',#77,#79,#83,.T.);
#85=ORIENTED_EDGE('',*,*,#84,.F.);
#86=CARTESIAN_POINT('',(0.75,1.25,6.661338E-016));
#87=VERTEX_POINT('',#86);
#88=CARTESIAN_POINT('',(0.75,1.5,7.771561E-016));
#89=DIRECTION('',(0.0,0.0,1.0));
#90=DIRECTION('',(0.0,1.0,0.0));
#91=AXIS2_PLACEMENT_3D('',#88,#89,#90);
#92=CIRCLE('',#91,0.25);
#93=EDGE_CURVE('',#87,#77,#92,.T.);
#94=ORIENTED_EDGE('',*,*,#93,.F.);
#95=CARTESIAN_POINT('',(0.75,1.25,0.750000000000001));
#96=VERTEX_POINT('',#95);
#97=CARTESIAN_POINT('',(0.75,1.25,6.661338E-016));
#98=DIRECTION('',(0.0,0.0,1.0));
#99=VECTOR('',#98,0.75);
#100=LINE('',#97,#99);
#101=EDGE_CURVE('',#87,#96,#100,.T.);
#102=ORIENTED_EDGE('',*,*,#101,.T.);
#103=CARTESIAN_POINT('',(0.75,1.5,0.750000000000001));
#104=DIRECTION('',(0.0,0.0,-1.0));
#105=DIRECTION('',(0.0,1.0,0.0));
#106=AXIS2_PLACEMENT_3D('',#103,#104,#105);
#107=CIRCLE('',#106,0.25);
#108=EDGE_CURVE('',#79,#96,#107,.T.);
#109=ORIENTED_EDGE('',*,*,#108,.F.);
#110=EDGE_LOOP('',(#85,#94,#102,#109));
#111=FACE_OUTER_BOUND('',#110,.T.);
#112=ADVANCED_FACE('',(#111),#75,.F.);
#113=CARTESIAN_POINT('',(0.75,2.25,1.110223E-015));
#114=DIRECTION('',(-1.224606E-016,-4.440892E-016,1.0));
#115=DIRECTION('',(0.0,1.0,0.0));
#116=AXIS2_PLACEMENT_3D('',#113,#114,#115);
#117=CYLINDRICAL_SURFACE('',#116,0.265);
#118=CARTESIAN_POINT('',(0.75,2.515,1.221245E-015));
#119=VERTEX_POINT('',#118);
#120=CARTESIAN_POINT('',(0.75,2.515,0.320000000000001));
#121=VERTEX_POINT('',#120);
#122=CARTESIAN_POINT('',(0.75,2.515,1.227907E-015));
#123=DIRECTION('',(0.0,0.0,1.0));
#124=VECTOR('',#123,0.32);
#125=LINE('',#122,#124);
#126=EDGE_CURVE('',#119,#121,#125,.T.);
#127=ORIENTED_EDGE('',*,*,#126,.F.);
#128=CARTESIAN_POINT('',(0.75,1.985,9.925394E-016));
#129=VERTEX_POINT('',#128);
#130=CARTESIAN_POINT('',(0.75,2.25,1.110223E-015));
#131=DIRECTION('',(0.0,0.0,1.0));
#132=DIRECTION('',(0.0,1.0,0.0));
#133=AXIS2_PLACEMENT_3D('',#130,#131,#132);
#134=CIRCLE('',#133,0.265);
#135=EDGE_CURVE('',#129,#119,#134,.T.);
#136=ORIENTED_EDGE('',*,*,#135,.F.);
#137=CARTESIAN_POINT('',(0.75,1.985,0.320000000000001));
#138=VERTEX_POINT('',#137);
#139=CARTESIAN_POINT('',(0.75,1.985,9.925394E-016));
#140=DIRECTION('',(0.0,0.0,1.0));
#141=VECTOR('',#140,0.32);
#142=LINE('',#139,#141);
#143=EDGE_CURVE('',#129,#138,#142,.T.);
#144=ORIENTED_EDGE('',*,*,#143,.T.);
#145=CARTESIAN_POINT('',(0.75,2.25,0.320000000000001));
#146=DIRECTION('',(0.0,0.0,-1.0));
#147=DIRECTION('',(0.0,1.0,0.0));
#148=AXIS2_PLACEMENT_3D('',#145,#146,#147);
#149=CIRCLE('',#148,0.265);
#150=EDGE_CURVE('',#121,#138,#149,.T.);
#151=ORIENTED_EDGE('',*,*,#150,.F.);
#152=EDGE_LOOP('',(#127,#136,#144,#151));
#153=FACE_OUTER_BOUND('',#152,.T.);
#154=ADVANCED_FACE('',(#153),#117,.F.);
#155=CARTESIAN_POINT('',(0.75,2.25,1.110223E-015));
#156=DIRECTION('',(-1.224606E-016,-4.440892E-016,1.0));
#157=DIRECTION('',(0.0,1.0,0.0));
#158=AXIS2_PLACEMENT_3D('',#155,#156,#157);
#159=CYLINDRICAL_SURFACE('',#158,0.171);
#160=CARTESIAN_POINT('',(0.75,2.421,0.320000000000001));
#161=VERTEX_POINT('',#160);
#162=CARTESIAN_POINT('',(0.75,2.421,0.750000000000001));
#163=VERTEX_POINT('',#162);
#164=CARTESIAN_POINT('',(0.75,2.421,0.320000000000001));
#165=DIRECTION('',(0.0,0.0,1.0));
#166=VECTOR('',#165,0.43);
#167=LINE('',#164,#166);
#168=EDGE_CURVE('',#161,#163,#167,.T.);
#169=ORIENTED_EDGE('',*,*,#168,.F.);
#170=CARTESIAN_POINT('',(0.75,2.079,0.320000000000001));
#171=VERTEX_POINT('',#170);
#172=CARTESIAN_POINT('',(0.75,2.25,0.320000000000001));
#173=DIRECTION('',(0.0,0.0,-1.0));
#174=DIRECTION('',(0.0,1.0,0.0));
#175=AXIS2_PLACEMENT_3D('',#172,#173,#174);
#176=CIRCLE('',#175,0.171);
#177=EDGE_CURVE('',#161,#171,#176,.T.);
#178=ORIENTED_EDGE('',*,*,#177,.T.);
#179=CARTESIAN_POINT('',(0.75,2.079,0.750000000000001));
#180=VERTEX_POINT('',#179);
#181=CARTESIAN_POINT('',(0.75,2.079,0.320000000000001));
#182=DIRECTION('',(0.0,0.0,1.0));
#183=VECTOR('',#182,0.43);
#184=LINE('',#181,#183);
#185=EDGE_CURVE('',#171,#180,#184,.T.);
#186=ORIENTED_EDGE('',*,*,#185,.T.);
#187=CARTESIAN_POINT('',(0.75,2.25,0.750000000000001));
#188=DIRECTION('',(0.0,0.0,-1.0));
#189=DIRECTION('',(0.0,1.0,0.0));
#190=AXIS2_PLACEMENT_3D('',#187,#188,#189);
#191=CIRCLE('',#190,0.171);
#192=EDGE_CURVE('',#163,#180,#191,.T.);
#193=ORIENTED_EDGE('',*,*,#192,.F.);
#194=EDGE_LOOP('',(#169,#178,#186,#193));
#195=FACE_OUTER_BOUND('',#194,.T.);
#196=ADVANCED_FACE('',(#195),#159,.F.);
#197=CARTESIAN_POINT('',(0.75,0.75,4.440892E-016));
#198=DIRECTION('',(-1.224606E-016,-4.440892E-016,1.0));
#199=DIRECTION('',(0.0,1.0,0.0));
#200=AXIS2_PLACEMENT_3D('',#197,#198,#199);
#201=CYLINDRICAL_SURFACE('',#200,0.265);
#202=CARTESIAN_POINT('',(0.75,1.015,5.551115E-016));
#203=VERTEX_POINT('',#202);
#204=CARTESIAN_POINT('',(0.75,1.015,0.320000000000001));
#205=VERTEX_POINT('',#204);
#206=CARTESIAN_POINT('',(0.75,1.015,5.617729E-016));
#207=DIRECTION('',(0.0,0.0,1.0));
#208=VECTOR('',#207,0.32);
#209=LINE('',#206,#208);
#210=EDGE_CURVE('',#203,#205,#209,.T.);
#211=ORIENTED_EDGE('',*,*,#210,.F.);
#212=CARTESIAN_POINT('',(0.75,0.485,3.264056E-016));
#213=VERTEX_POINT('',#212);
#214=CARTESIAN_POINT('',(0.75,0.75,4.440892E-016));
#215=DIRECTION('',(0.0,0.0,1.0));
#216=DIRECTION('',(0.0,1.0,0.0));
#217=AXIS2_PLACEMENT_3D('',#214,#215,#216);
#218=CIRCLE('',#217,0.265);
#219=EDGE_CURVE('',#213,#203,#218,.T.);
#220=ORIENTED_EDGE('',*,*,#219,.F.);
#221=CARTESIAN_POINT('',(0.75,0.485,0.32));
#222=VERTEX_POINT('',#221);
#223=CARTESIAN_POINT('',(0.75,0.485,3.264056E-016));
#224=DIRECTION('',(0.0,0.0,1.0));
#225=VECTOR('',#224,0.32);
#226=LINE('',#223,#225);
#227=EDGE_CURVE('',#213,#222,#226,.T.);
#228=ORIENTED_EDGE('',*,*,#227,.T.);
#229=CARTESIAN_POINT('',(0.75,0.75,0.32));
#230=DIRECTION('',(0.0,0.0,-1.0));
#231=DIRECTION('',(0.0,1.0,0.0));
#232=AXIS2_PLACEMENT_3D('',#229,#230,#231);
#233=CIRCLE('',#232,0.265);
#234=EDGE_CURVE('',#205,#222,#233,.T.);
#235=ORIENTED_EDGE('',*,*,#234,.F.);
#236=EDGE_LOOP('',(#211,#220,#228,#235));
#237=FACE_OUTER_BOUND('',#236,.T.);
#238=ADVANCED_FACE('',(#237),#201,.F.);
#239=CARTESIAN_POINT('',(0.75,0.75,4.440892E-016));
#240=DIRECTION('',(-1.224606E-016,-4.440892E-016,1.0));
#241=DIRECTION('',(0.0,1.0,0.0));
#242=AXIS2_PLACEMENT_3D('',#239,#240,#241);
#243=CYLINDRICAL_SURFACE('',#242,0.171);
#244=CARTESIAN_POINT('',(0.75,0.921,0.320000000000001));
#245=VERTEX_POINT('',#244);
#246=CARTESIAN_POINT('',(0.75,0.921,0.750000000000001));
#247=VERTEX_POINT('',#246);
#248=CARTESIAN_POINT('',(0.75,0.921,0.320000000000001));
#249=DIRECTION('',(0.0,0.0,1.0));
#250=VECTOR('',#249,0.43);
#251=LINE('',#248,#250);
#252=EDGE_CURVE('',#245,#247,#251,.T.);
#253=ORIENTED_EDGE('',*,*,#252,.F.);
#254=CARTESIAN_POINT('',(0.75,0.579,0.32));
#255=VERTEX_POINT('',#254);
#256=CARTESIAN_POINT('',(0.75,0.75,0.32));
#257=DIRECTION('',(0.0,0.0,-1.0));
#258=DIRECTION('',(0.0,1.0,0.0));
#259=AXIS2_PLACEMENT_3D('',#256,#257,#258);
#260=CIRCLE('',#259,0.171);
#261=EDGE_CURVE('',#245,#255,#260,.T.);
#262=ORIENTED_EDGE('',*,*,#261,.T.);
#263=CARTESIAN_POINT('',(0.75,0.579,0.75));
#264=VERTEX_POINT('',#263);
#265=CARTESIAN_POINT('',(0.75,0.579,0.32));
#266=DIRECTION('',(0.0,0.0,1.0));
#267=VECTOR('',#266,0.43);
#268=LINE('',#265,#267);
#269=EDGE_CURVE('',#255,#264,#268,.T.);
#270=ORIENTED_EDGE('',*,*,#269,.T.);
#271=CARTESIAN_POINT('',(0.75,0.75,0.75));
#272=DIRECTION('',(0.0,0.0,-1.0));
#273=DIRECTION('',(0.0,1.0,0.0));
#274=AXIS2_PLACEMENT_3D('',#271,#272,#273);
#275=CIRCLE('',#274,0.171);
#276=EDGE_CURVE('',#247,#264,#275,.T.);
#277=ORIENTED_EDGE('',*,*,#276,.F.);
#278=EDGE_LOOP('',(#253,#262,#270,#277));
#279=FACE_OUTER_BOUND('',#278,.T.);
#280=ADVANCED_FACE('',(#279),#243,.F.);
#281=CARTESIAN_POINT('',(0.75,0.75,4.440892E-016));
#282=DIRECTION('',(-1.224606E-016,-4.440892E-016,1.0));
#283=DIRECTION('',(0.0,1.0,0.0));
#284=AXIS2_PLACEMENT_3D('',#281,#282,#283);
#285=CYLINDRICAL_SURFACE('',#284,0.171);
#286=ORIENTED_EDGE('',*,*,#252,.T.);
#287=CARTESIAN_POINT('',(0.75,0.75,0.75));
#288=DIRECTION('',(0.0,0.0,-1.0));
#289=DIRECTION('',(0.0,1.0,0.0));
#290=AXIS2_PLACEMENT_3D('',#287,#288,#289);
#291=CIRCLE('',#290,0.171);
#292=EDGE_CURVE('',#264,#247,#291,.T.);
#293=ORIENTED_EDGE('',*,*,#292,.F.);
#294=ORIENTED_EDGE('',*,*,#269,.F.);
#295=CARTESIAN_POINT('',(0.75,0.75,0.32));
#296=DIRECTION('',(0.0,0.0,-1.0));
#297=DIRECTION('',(0.0,1.0,0.0));
#298=AXIS2_PLACEMENT_3D('',#295,#296,#297);
#299=CIRCLE('',#298,0.171);
#300=EDGE_CURVE('',#255,#245,#299,.T.);
#301=ORIENTED_EDGE('',*,*,#300,.T.);
#302=EDGE_LOOP('',(#286,#293,#294,#301));
#303=FACE_OUTER_BOUND('',#302,.T.);
#304=ADVANCED_FACE('',(#303),#285,.F.);
#305=CARTESIAN_POINT('',(0.75,0.75,4.440892E-016));
#306=DIRECTION('',(-1.224606E-016,-4.440892E-016,1.0));
#307=DIRECTION('',(0.0,1.0,0.0));
#308=AXIS2_PLACEMENT_3D('',#305,#306,#307);
#309=CYLINDRICAL_SURFACE('',#308,0.265);
#310=ORIENTED_EDGE('',*,*,#210,.T.);
#311=CARTESIAN_POINT('',(0.75,0.75,0.32));
#312=DIRECTION('',(0.0,0.0,-1.0));
#313=DIRECTION('',(0.0,1.0,0.0));
#314=AXIS2_PLACEMENT_3D('',#311,#312,#313);
#315=CIRCLE('',#314,0.265);
#316=EDGE_CURVE('',#222,#205,#315,.T.);
#317=ORIENTED_EDGE('',*,*,#316,.F.);
#318=ORIENTED_EDGE('',*,*,#227,.F.);
#319=CARTESIAN_POINT('',(0.75,0.75,4.440892E-016));
#320=DIRECTION('',(0.0,0.0,1.0));
#321=DIRECTION('',(0.0,1.0,0.0));
#322=AXIS2_PLACEMENT_3D('',#319,#320,#321);
#323=CIRCLE('',#322,0.265);
#324=EDGE_CURVE('',#203,#213,#323,.T.);
#325=ORIENTED_EDGE('',*,*,#324,.F.);
#326=EDGE_LOOP('',(#310,#317,#318,#325));
#327=FACE_OUTER_BOUND('',#326,.T.);
#328=ADVANCED_FACE('',(#327),#309,.F.);
#329=CARTESIAN_POINT('',(0.75,0.75,0.32));
#330=DIRECTION('',(0.0,0.0,-1.0));
#331=DIRECTION('',(0.0,1.0,0.0));
#332=AXIS2_PLACEMENT_3D('',#329,#330,#331);
#333=PLANE('',#332);
#334=ORIENTED_EDGE('',*,*,#234,.T.);
#335=ORIENTED_EDGE('',*,*,#316,.T.);
#336=EDGE_LOOP('',(#334,#335));
#337=FACE_OUTER_BOUND('',#336,.T.);
#338=ORIENTED_EDGE('',*,*,#300,.F.);
#339=ORIENTED_EDGE('',*,*,#261,.F.);
#340=EDGE_LOOP('',(#338,#339));
#341=FACE_BOUND('',#340,.T.);
#342=ADVANCED_FACE('',(#337,#341),#333,.T.);
#343=CARTESIAN_POINT('',(0.75,2.25,1.110223E-015));
#344=DIRECTION('',(-1.224606E-016,-4.440892E-016,1.0));
#345=DIRECTION('',(0.0,1.0,0.0));
#346=AXIS2_PLACEMENT_3D('',#343,#344,#345);
#347=CYLINDRICAL_SURFACE('',#346,0.171);
#348=ORIENTED_EDGE('',*,*,#168,.T.);
#349=CARTESIAN_POINT('',(0.75,2.25,0.750000000000001));
#350=DIRECTION('',(0.0,0.0,-1.0));
#351=DIRECTION('',(0.0,1.0,0.0));
#352=AXIS2_PLACEMENT_3D('',#349,#350,#351);
#353=CIRCLE('',#352,0.171);
#354=EDGE_CURVE('',#180,#163,#353,.T.);
#355=ORIENTED_EDGE('',*,*,#354,.F.);
#356=ORIENTED_EDGE('',*,*,#185,.F.);
#357=CARTESIAN_POINT('',(0.75,2.25,0.320000000000001));
#358=DIRECTION('',(0.0,0.0,-1.0));
#359=DIRECTION('',(0.0,1.0,0.0));
#360=AXIS2_PLACEMENT_3D('',#357,#358,#359);
#361=CIRCLE('',#360,0.171);
#362=EDGE_CURVE('',#171,#161,#361,.T.);
#363=ORIENTED_EDGE('',*,*,#362,.T.);
#364=EDGE_LOOP('',(#348,#355,#356,#363));
#365=FACE_OUTER_BOUND('',#364,.T.);
#366=ADVANCED_FACE('',(#365),#347,.F.);
#367=CARTESIAN_POINT('',(0.75,2.25,1.110223E-015));
#368=DIRECTION('',(-1.224606E-016,-4.440892E-016,1.0));
#369=DIRECTION('',(0.0,1.0,0.0));
#370=AXIS2_PLACEMENT_3D('',#367,#368,#369);
#371=CYLINDRICAL_SURFACE('',#370,0.265);
#372=ORIENTED_EDGE('',*,*,#126,.T.);
#373=CARTESIAN_POINT('',(0.75,2.25,0.320000000000001));
#374=DIRECTION('',(0.0,0.0,-1.0));
#375=DIRECTION('',(0.0,1.0,0.0));
#376=AXIS2_PLACEMENT_3D('',#373,#374,#375);
#377=CIRCLE('',#376,0.265);
#378=EDGE_CURVE('',#138,#121,#377,.T.);
#379=ORIENTED_EDGE('',*,*,#378,.F.);
#380=ORIENTED_EDGE('',*,*,#143,.F.);
#381=CARTESIAN_POINT('',(0.75,2.25,1.110223E-015));
#382=DIRECTION('',(0.0,0.0,1.0));
#383=DIRECTION('',(0.0,1.0,0.0));
#384=AXIS2_PLACEMENT_3D('',#381,#382,#383);
#385=CIRCLE('',#384,0.265);
#386=EDGE_CURVE('',#119,#129,#385,.T.);
#387=ORIENTED_EDGE('',*,*,#386,.F.);
#388=EDGE_LOOP('',(#372,#379,#380,#387));
#389=FACE_OUTER_BOUND('',#388,.T.);
#390=ADVANCED_FACE('',(#389),#371,.F.);
#391=CARTESIAN_POINT('',(0.75,2.25,0.320000000000001));
#392=DIRECTION('',(0.0,0.0,-1.0));
#393=DIRECTION('',(0.0,1.0,0.0));
#394=AXIS2_PLACEMENT_3D('',#391,#392,#393);
#395=PLANE('',#394);
#396=ORIENTED_EDGE('',*,*,#150,.T.);
#397=ORIENTED_EDGE('',*,*,#378,.T.);
#398=EDGE_LOOP('',(#396,#397));
#399=FACE_OUTER_BOUND('',#398,.T.);
#400=ORIENTED_EDGE('',*,*,#362,.F.);
#401=ORIENTED_EDGE('',*,*,#177,.F.);
#402=EDGE_LOOP('',(#400,#401));
#403=FACE_BOUND('',#402,.T.);
#404=ADVANCED_FACE('',(#399,#403),#395,.T.);
#405=CARTESIAN_POINT('',(0.75,1.5,7.771561E-016));
#406=DIRECTION('',(-1.224606E-016,-4.440892E-016,1.0));
#407=DIRECTION('',(0.0,1.0,0.0));
#408=AXIS2_PLACEMENT_3D('',#405,#406,#407);
#409=CYLINDRICAL_SURFACE('',#408,0.25);
#410=ORIENTED_EDGE('',*,*,#84,.T.);
#411=CARTESIAN_POINT('',(0.75,1.5,0.750000000000001));
#412=DIRECTION('',(0.0,0.0,-1.0));
#413=DIRECTION('',(0.0,1.0,0.0));
#414=AXIS2_PLACEMENT_3D('',#411,#412,#413);
#415=CIRCLE('',#414,0.25);
#416=EDGE_CURVE('',#96,#79,#415,.T.);
#417=ORIENTED_EDGE('',*,*,#416,.F.);
#418=ORIENTED_EDGE('',*,*,#101,.F.);
#419=CARTESIAN_POINT('',(0.75,1.5,7.771561E-016));
#420=DIRECTION('',(0.0,0.0,1.0));
#421=DIRECTION('',(0.0,1.0,0.0));
#422=AXIS2_PLACEMENT_3D('',#419,#420,#421);
#423=CIRCLE('',#422,0.25);
#424=EDGE_CURVE('',#77,#87,#423,.T.);
#425=ORIENTED_EDGE('',*,*,#424,.F.);
#426=EDGE_LOOP('',(#410,#417,#418,#425));
#427=FACE_OUTER_BOUND('',#426,.T.);
#428=ADVANCED_FACE('',(#427),#409,.F.);
#429=CARTESIAN_POINT('',(0.0,0.0,0.75));
#430=DIRECTION('',(0.0,-1.0,0.0));
#431=DIRECTION('',(0.0,0.0,-1.0));
#432=AXIS2_PLACEMENT_3D('',#429,#430,#431);
#433=PLANE('',#432);
#434=CARTESIAN_POINT('',(0.0,0.0,0.0));
#435=VERTEX_POINT('',#434);
#436=CARTESIAN_POINT('',(1.5,0.0,2.220446E-016));
#437=VERTEX_POINT('',#436);
#438=CARTESIAN_POINT('',(0.0,9.184548E-017,3.835365E-017));
#439=DIRECTION('',(1.0,0.0,0.0));
#440=VECTOR('',#439,1.5);
#441=LINE('',#438,#440);
#442=EDGE_CURVE('',#435,#437,#441,.T.);
#443=ORIENTED_EDGE('',*,*,#442,.T.);
#444=CARTESIAN_POINT('',(1.5,0.0,0.75));
#445=VERTEX_POINT('',#444);
#446=CARTESIAN_POINT('',(1.5,0.0,0.75));
#447=DIRECTION('',(0.0,0.0,-1.0));
#448=VECTOR('',#447,0.75);
#449=LINE('',#446,#448);
#450=EDGE_CURVE('',#445,#437,#449,.T.);
#451=ORIENTED_EDGE('',*,*,#450,.F.);
#452=CARTESIAN_POINT('',(0.0,0.0,0.75));
#453=VERTEX_POINT('',#452);
#454=CARTESIAN_POINT('',(1.5,0.0,0.75));
#455=DIRECTION('',(-1.0,0.0,0.0));
#456=VECTOR('',#455,1.5);
#457=LINE('',#454,#456);
#458=EDGE_CURVE('',#445,#453,#457,.T.);
#459=ORIENTED_EDGE('',*,*,#458,.T.);
#460=CARTESIAN_POINT('',(0.0,0.0,0.75));
#461=DIRECTION('',(0.0,0.0,-1.0));
#462=VECTOR('',#461,0.75);
#463=LINE('',#460,#462);
#464=EDGE_CURVE('',#453,#435,#463,.T.);
#465=ORIENTED_EDGE('',*,*,#464,.T.);
#466=EDGE_LOOP('',(#443,#451,#459,#465));
#467=FACE_OUTER_BOUND('',#466,.T.);
#468=ADVANCED_FACE('',(#467),#433,.T.);
#469=CARTESIAN_POINT('',(1.5,0.0,0.75));
#470=DIRECTION('',(1.0,0.0,0.0));
#471=DIRECTION('',(0.0,0.0,-1.0));
#472=AXIS2_PLACEMENT_3D('',#469,#470,#471);
#473=PLANE('',#472);
#474=CARTESIAN_POINT('',(1.5,3.0,1.554312E-015));
#475=VERTEX_POINT('',#474);
#476=CARTESIAN_POINT('',(1.5,0.0,2.220446E-016));
#477=DIRECTION('',(0.0,1.0,0.0));
#478=VECTOR('',#477,3.0);
#479=LINE('',#476,#478);
#480=EDGE_CURVE('',#437,#475,#479,.T.);
#481=ORIENTED_EDGE('',*,*,#480,.T.);
#482=CARTESIAN_POINT('',(1.5,3.0,0.750000000000002));
#483=VERTEX_POINT('',#482);
#484=CARTESIAN_POINT('',(1.5,3.0,0.750000000000002));
#485=DIRECTION('',(0.0,0.0,-1.0));
#486=VECTOR('',#485,0.75);
#487=LINE('',#484,#486);
#488=EDGE_CURVE('',#483,#475,#487,.T.);
#489=ORIENTED_EDGE('',*,*,#488,.F.);
#490=CARTESIAN_POINT('',(1.5,3.0,0.750000000000002));
#491=DIRECTION('',(0.0,-1.0,0.0));
#492=VECTOR('',#491,3.0);
#493=LINE('',#490,#492);
#494=EDGE_CURVE('',#483,#445,#493,.T.);
#495=ORIENTED_EDGE('',*,*,#494,.T.);
#496=ORIENTED_EDGE('',*,*,#450,.T.);
#497=EDGE_LOOP('',(#481,#489,#495,#496));
#498=FACE_OUTER_BOUND('',#497,.T.);
#499=ADVANCED_FACE('',(#498),#473,.T.);
#500=CARTESIAN_POINT('',(1.5,3.0,0.750000000000002));
#501=DIRECTION('',(0.0,1.0,0.0));
#502=DIRECTION('',(0.0,0.0,1.0));
#503=AXIS2_PLACEMENT_3D('',#500,#501,#502);
#504=PLANE('',#503);
#505=CARTESIAN_POINT('',(0.0,3.0,1.332268E-015));
#506=VERTEX_POINT('',#505);
#507=CARTESIAN_POINT('',(1.5,3.0,1.515959E-015));
#508=DIRECTION('',(-1.0,0.0,0.0));
#509=VECTOR('',#508,1.5);
#510=LINE('',#507,#509);
#511=EDGE_CURVE('',#475,#506,#510,.T.);
#512=ORIENTED_EDGE('',*,*,#511,.T.);
#513=CARTESIAN_POINT('',(0.0,3.0,0.750000000000001));
#514=VERTEX_POINT('',#513);
#515=CARTESIAN_POINT('',(0.0,3.0,0.750000000000001));
#516=DIRECTION('',(0.0,0.0,-1.0));
#517=VECTOR('',#516,0.75);
#518=LINE('',#515,#517);
#519=EDGE_CURVE('',#514,#506,#518,.T.);
#520=ORIENTED_EDGE('',*,*,#519,.F.);
#521=CARTESIAN_POINT('',(0.0,3.0,0.750000000000001));
#522=DIRECTION('',(1.0,0.0,0.0));
#523=VECTOR('',#522,1.5);
#524=LINE('',#521,#523);
#525=EDGE_CURVE('',#514,#483,#524,.T.);
#526=ORIENTED_EDGE('',*,*,#525,.T.);
#527=ORIENTED_EDGE('',*,*,#488,.T.);
#528=EDGE_LOOP('',(#512,#520,#526,#527));
#529=FACE_OUTER_BOUND('',#528,.T.);
#530=ADVANCED_FACE('',(#529),#504,.T.);
#531=CARTESIAN_POINT('',(0.0,3.0,0.750000000000001));
#532=DIRECTION('',(-1.0,0.0,0.0));
#533=DIRECTION('',(0.0,0.0,1.0));
#534=AXIS2_PLACEMENT_3D('',#531,#532,#533);
#535=PLANE('',#534);
#536=CARTESIAN_POINT('',(1.836910E-016,3.0,1.332268E-015));
#537=DIRECTION('',(0.0,-1.0,0.0));
#538=VECTOR('',#537,3.0);
#539=LINE('',#536,#538);
#540=EDGE_CURVE('',#506,#435,#539,.T.);
#541=ORIENTED_EDGE('',*,*,#540,.T.);
#542=ORIENTED_EDGE('',*,*,#464,.F.);
#543=CARTESIAN_POINT('',(0.0,0.0,0.75));
#544=DIRECTION('',(0.0,1.0,0.0));
#545=VECTOR('',#544,3.0);
#546=LINE('',#543,#545);
#547=EDGE_CURVE('',#453,#514,#546,.T.);
#548=ORIENTED_EDGE('',*,*,#547,.T.);
#549=ORIENTED_EDGE('',*,*,#519,.T.);
#550=EDGE_LOOP('',(#541,#542,#548,#549));
#551=FACE_OUTER_BOUND('',#550,.T.);
#552=ADVANCED_FACE('',(#551),#535,.T.);
#553=CARTESIAN_POINT('',(0.75,1.5,7.771561E-016));
#554=DIRECTION('',(0.0,0.0,-1.0));
#555=DIRECTION('',(0.0,1.0,0.0));
#556=AXIS2_PLACEMENT_3D('',#553,#554,#555);
#557=PLANE('',#556);
#558=ORIENTED_EDGE('',*,*,#442,.F.);
#559=ORIENTED_EDGE('',*,*,#540,.F.);
#560=ORIENTED_EDGE('',*,*,#511,.F.);
#561=ORIENTED_EDGE('',*,*,#480,.F.);
#562=EDGE_LOOP('',(#558,#559,#560,#561));
#563=FACE_OUTER_BOUND('',#562,.T.);
#564=ORIENTED_EDGE('',*,*,#324,.T.);
#565=ORIENTED_EDGE('',*,*,#219,.T.);
#566=EDGE_LOOP('',(#564,#565));
#567=FACE_BOUND('',#566,.T.);
#568=ORIENTED_EDGE('',*,*,#386,.T.);
#569=ORIENTED_EDGE('',*,*,#135,.T.);
#570=EDGE_LOOP('',(#568,#569));
#571=FACE_BOUND('',#570,.T.);
#572=ORIENTED_EDGE('',*,*,#424,.T.);
#573=ORIENTED_EDGE('',*,*,#93,.T.);
#574=EDGE_LOOP('',(#572,#573));
#575=FACE_BOUND('',#574,.T.);
#576=ADVANCED_FACE('',(#563,#567,#571,#575),#557,.T.);
#577=CARTESIAN_POINT('',(0.75,1.5,0.750000000000001));
#578=DIRECTION('',(0.0,0.0,-1.0));
#579=DIRECTION('',(0.0,1.0,0.0));
#580=AXIS2_PLACEMENT_3D('',#577,#578,#579);
#581=PLANE('',#580);
#582=ORIENTED_EDGE('',*,*,#547,.F.);
#583=ORIENTED_EDGE('',*,*,#458,.F.);
#584=ORIENTED_EDGE('',*,*,#494,.F.);
#585=ORIENTED_EDGE('',*,*,#525,.F.);
#586=EDGE_LOOP('',(#582,#583,#584,#585));
#587=FACE_OUTER_BOUND('',#586,.T.);
#588=ORIENTED_EDGE('',*,*,#276,.T.);
#589=ORIENTED_EDGE('',*,*,#292,.T.);
#590=EDGE_LOOP('',(#588,#589));
#591=FACE_BOUND('',#590,.T.);
#592=ORIENTED_EDGE('',*,*,#192,.T.);
#593=ORIENTED_EDGE('',*,*,#354,.T.);
#594=EDGE_LOOP('',(#592,#593));
#595=FACE_BOUND('',#594,.T.);
#596=ORIENTED_EDGE('',*,*,#108,.T.);
#597=ORIENTED_EDGE('',*,*,#416,.T.);
#598=EDGE_LOOP('',(#596,#597));
#599=FACE_BOUND('',#598,.T.);
#600=ADVANCED_FACE('',(#587,#591,#595,#599),#581,.F.);
#601=CLOSED_SHELL('',(#112,#154,#196,#238,#280,#304,#328,#342,#366,#390,#404,#428,#468,#499,#530,#552,#576,#600));
#602=MANIFOLD_SOLID_BREP('2B',#601);
#603=DRAUGHTING_PRE_DEFINED_COLOUR('white');
#604=SURFACE_STYLE_USAGE(.BOTH.,#605);
#605=SURFACE_SIDE_STYLE('NONE',(#606));
#606=SURFACE_STYLE_FILL_AREA(#607);
#607=FILL_AREA_STYLE('NONE',(#608));
#608=FILL_AREA_STYLE_COLOUR('NONE',#603);
#609=PRESENTATION_STYLE_ASSIGNMENT((#604));
#610=STYLED_ITEM('NONE',(#609),#602);
#611=MECHANICAL_DESIGN_GEOMETRIC_PRESENTATION_REPRESENTATION('NONE',(#610),#34);
#612=PRESENTATION_LAYER_ASSIGNMENT('0','None',(#602));
#613=ADVANCED_BREP_SHAPE_REPRESENTATION('ABSR1',(#602),#34);
#614=SHAPE_REPRESENTATION_RELATIONSHIP('SRRPL1','',#613,#68);
ENDSEC;
END-ISO-10303-21;
